Decimocuarta clase de guitarra

Y continuamos para linia... "Dust in the wind"

C
--------------------------------|------------------------------|
-1-------1------0-------0-------|-3-------3-----1-------1------|
-----0-------0------0-------0---|-----0-------0-----0-------0--|
---2-------2------2-------2-----|---2-------2-----2-------2----|
-3-----3--------3-----3---------|-3-----3-------3-----3--------|
--------------------------------|------------------------------|

Am
--------------------------------|------------------------------|
-0-------0------3-------3-------|-1-------1-----0-------0------|
-----2-------2------2-------2---|-----2-------2-----2-------2--|
---2-------2------2-------2-----|---2-------2-----2-------2----|
-0-----0--------0-----0---------|-0-----0-------0-----0--------|
--------------------------------|------------------------------|

C
--------------------------------|------------------------------|
-3-------3------1-------1-------|-0-------0-----3-------3------|
-----0-------0------0-------0---|-----0-------0-----0-------0--|
---2-------2------2-------2-----|---2-------2-----2-------2----|
-3-----3--------3-----3---------|-3-----3-------3-----3--------|
--------------------------------|------------------------------|

Am
--------------------------------|------------------------------|
-1-------1------0-------0-------|-3-------3-----1-----1---3----|
-----2-------2------2-------2---|-----2-------2-----2----------|
---2-------2------2-------2-----|---2-------2-----2------------|
-0-----0--------0-----0---------|-0-----0-------0-----0---2----|
--------------------------------|------------------------------|



El tema del software musical salió mal, debo tener algo mal configurado en el pc y no me permite instalar según qué cosa... otra tema pendiente de estudiar.

Comments

Popular Posts